ISO-10303-21;
HEADER;
FILE_DESCRIPTION (( 'STEP AP214' ),
    '1' );
FILE_NAME ('9041154 (125mm dia x 45 deg).STEP',
    '2025-03-06T13:24:25',
    ( '' ),
    ( '' ),
    'SwSTEP 2.0',
    'SolidWorks 2024',
    '' );
FILE_SCHEMA (( 'AUTOMOTIVE_DESIGN' ));
ENDSEC;

DATA;
#1 = AXIS2_PLACEMENT_3D ( 'NONE', #26, #306, #123 ) ;
#2 = CYLINDRICAL_SURFACE ( 'NONE', #68, 78.50000000000000000 ) ;
#3 = PLANE ( 'NONE',  #127 ) ;
#4 = ORIENTED_EDGE ( 'NONE', *, *, #162, .F. ) ;
#5 = FACE_BOUND ( 'NONE', #263, .T. ) ;
#6 = CYLINDRICAL_SURFACE ( 'NONE', #261, 78.50000000000000000 ) ;
#7 = ORIENTED_EDGE ( 'NONE', *, *, #281, .F. ) ;
#8 = CARTESIAN_POINT ( 'NONE',  ( 62.50000000000000000, 68.55234457274758597, -36.61165235168155618 ) ) ;
#9 = CARTESIAN_POINT ( 'NONE',  ( -84.53770208912766293, 98.29133778025698120, 0.000000000000000000 ) ) ;
#10 = CARTESIAN_POINT ( 'NONE',  ( 45.98423535371203741, 75.39339828220215622, -78.50000000000000000 ) ) ;
#11 = ORIENTED_EDGE ( 'NONE', *, *, #242, .T. ) ;
#12 = FACE_OUTER_BOUND ( 'NONE', #155, .T. ) ;
#13 = ORIENTED_EDGE ( 'NONE', *, *, #159, .F. ) ;
#14 = CARTESIAN_POINT ( 'NONE',  ( 122.2875362126113146, 105.7124637873891970, 9.613477373306723330E-15 ) ) ;
#15 = VERTEX_POINT ( 'NONE', #98 ) ;
#16 = EDGE_LOOP ( 'NONE', ( #4, #144, #19, #87, #11 ) ) ;
#17 = EDGE_CURVE ( 'NONE', #234, #143, #20, .T. ) ;
#18 = EDGE_CURVE ( 'NONE', #86, #62, #239, .T. ) ;
#19 = ORIENTED_EDGE ( 'NONE', *, *, #281, .T. ) ;
#20 = LINE ( 'NONE', #171, #124 ) ;
#21 = ADVANCED_FACE ( 'NONE', ( #165 ), #146, .T. ) ;
#22 = CARTESIAN_POINT ( 'NONE',  ( 0.000000000000000000, 0.000000000000000000, 62.50000000000000000 ) ) ;
#23 = CARTESIAN_POINT ( 'NONE',  ( 66.77965388946743985, 161.2203461105332565, 0.000000000000000000 ) ) ;
#24 = EDGE_CURVE ( 'NONE', #106, #318, #201, .T. ) ;
#25 = ADVANCED_BREP_SHAPE_REPRESENTATION ( '9041154 (125mm dia x 45 deg)', ( #213, #231 ), #110 ) ;
#26 = CARTESIAN_POINT ( 'NONE',  ( 66.77965388946743985, 161.2203461105332565, 0.000000000000000000 ) ) ;
#27 = CARTESIAN_POINT ( 'NONE',  ( 7.654042494670957804E-15, 0.000000000000000000, -62.50000000000000000 ) ) ;
#28 = DIRECTION ( 'NONE',  ( 0.7071067811865489050, 0.7071067811865462405, 0.000000000000000000 ) ) ;
#29 = EDGE_CURVE ( 'NONE', #67, #58, #178, .T. ) ;
#30 = SHAPE_DEFINITION_REPRESENTATION ( #70, #25 ) ;
#31 = CARTESIAN_POINT ( 'NONE',  ( 0.000000000000000000, 0.000000000000000000, 78.50000000000000000 ) ) ;
#32 = ORIENTED_EDGE ( 'NONE', *, *, #29, .F. ) ;
#33 = CARTESIAN_POINT ( 'NONE',  ( 7.654042494670957804E-15, 94.44069222106608663, -62.50000000000000000 ) ) ;
#34 = FACE_OUTER_BOUND ( 'NONE', #185, .T. ) ;
#35 = DIRECTION ( 'NONE',  ( 0.7071067811865489050, 0.7071067811865462405, -0.000000000000000000 ) ) ;
#36 = VERTEX_POINT ( 'NONE', #14 ) ;
#37 = CARTESIAN_POINT ( 'NONE',  ( 0.000000000000000000, 0.000000000000000000, 0.000000000000000000 ) ) ;
#38 = DIRECTION ( 'NONE',  ( 0.7071067811865487940, 0.7071067811865463515, 0.000000000000000000 ) ) ;
#39 = VERTEX_POINT ( 'NONE', #22 ) ;
#40 = CARTESIAN_POINT ( 'NONE',  ( 9.613477373306723330E-15, 0.000000000000000000, -78.50000000000000000 ) ) ;
#41 = VERTEX_POINT ( 'NONE', #114 ) ;
#42 = ORIENTED_EDGE ( 'NONE', *, *, #257, .T. ) ;
#43 = EDGE_CURVE ( 'NONE', #192, #41, #255, .T. ) ;
#44 = APPLICATION_CONTEXT ( 'automotive_design' ) ;
#45 = DIRECTION ( 'NONE',  ( -0.7071067811865487940, -0.7071067811865462405, -0.000000000000000000 ) ) ;
#46 = ORIENTED_EDGE ( 'NONE', *, *, #317, .F. ) ;
#47 = CARTESIAN_POINT ( 'NONE',  ( 0.000000000000000000, 0.000000000000000000, 0.000000000000000000 ) ) ;
#48 = CARTESIAN_POINT ( 'NONE',  ( -40.34352826496853339, 54.09716395609768114, 0.000000000000000000 ) ) ;
#49 = EDGE_CURVE ( 'NONE', #139, #248, #282, .T. ) ;
#50 = CARTESIAN_POINT ( 'NONE',  ( 78.50000000000001421, 61.92492757477803877, 9.613477373306723330E-15 ) ) ;
#51 = CARTESIAN_POINT ( 'NONE',  ( -62.50000000000000000, 120.3290398693845873, -36.61165235168155618 ) ) ;
#52 = CARTESIAN_POINT ( 'NONE',  ( 9.613477373306723330E-15, 94.44069222106608663, -78.50000000000000000 ) ) ;
#53 = CARTESIAN_POINT ( 'NONE',  ( 3.850645559190603251, 9.902990131938384621, 7.654042494670957804E-15 ) ) ;
#54 = LINE ( 'NONE', #202, #335 ) ;
#55 = ORIENTED_EDGE ( 'NONE', *, *, #339, .F. ) ;
#56 = DIRECTION ( 'NONE',  ( 0.000000000000000000, -0.000000000000000000, 1.000000000000000000 ) ) ;
#57 = DIRECTION ( 'NONE',  ( 0.000000000000000000, 1.000000000000000000, 0.000000000000000000 ) ) ;
#58 = VERTEX_POINT ( 'NONE', #245 ) ;
#59 = ORIENTED_EDGE ( 'NONE', *, *, #186, .F. ) ;
#60 = STYLED_ITEM ( 'NONE', ( #179 ), #213 ) ;
#61 = DIRECTION ( 'NONE',  ( 0.7071067811865487940, 0.7071067811865462405, 0.000000000000000000 ) ) ;
#62 = VERTEX_POINT ( 'NONE', #122 ) ;
#63 = DIRECTION ( 'NONE',  ( 0.000000000000000000, 0.000000000000000000, 1.000000000000000000 ) ) ;
#64 = DIRECTION ( 'NONE',  ( 0.000000000000000000, 0.000000000000000000, 1.000000000000000000 ) ) ;
#65 = CARTESIAN_POINT ( 'NONE',  ( 36.61165235168155618, 79.27564927611072676, 62.50000000000000000 ) ) ;
#66 = FACE_OUTER_BOUND ( 'NONE', #129, .T. ) ;
#67 = VERTEX_POINT ( 'NONE', #309 ) ;
#68 = AXIS2_PLACEMENT_3D ( 'NONE', #208, #160, #79 ) ;
#69 = ORIENTED_EDGE ( 'NONE', *, *, #24, .F. ) ;
#70 = PRODUCT_DEFINITION_SHAPE ( 'NONE', 'NONE',  #264 ) ;
#71 = AXIS2_PLACEMENT_3D ( 'NONE', #278, #61, #275 ) ;
#72 = FACE_OUTER_BOUND ( 'NONE', #173, .T. ) ;
#73 = CARTESIAN_POINT ( 'NONE',  ( 7.654042494670957804E-15, 0.000000000000000000, -62.50000000000000000 ) ) ;
#74 = DIRECTION ( 'NONE',  ( 0.000000000000000000, 1.000000000000000000, 0.000000000000000000 ) ) ;
#75 = EDGE_CURVE ( 'NONE', #93, #139, #151, .T. ) ;
#76 = PRODUCT_DEFINITION_CONTEXT ( 'detailed design', #44, 'design' ) ;
#77 = APPLICATION_PROTOCOL_DEFINITION ( 'draft international standard', 'automotive_design', 1998, #44 ) ;
#78 = SURFACE_STYLE_USAGE ( .BOTH. , #287 ) ;
#79 = DIRECTION ( 'NONE',  ( 0.000000000000000000, 0.000000000000000000, 1.000000000000000000 ) ) ;
#80 = LINE ( 'NONE', #31, #230 ) ;
#81 = ORIENTED_EDGE ( 'NONE', *, *, #49, .T. ) ;
#82 = PRODUCT_DEFINITION_FORMATION_WITH_SPECIFIED_SOURCE ( 'ANY', '', #169, .NOT_KNOWN. ) ;
#83 = CARTESIAN_POINT ( 'NONE',  ( 78.50000000000001421, 61.92492757477803877, 9.613477373306723330E-15 ) ) ;
#84 = ORIENTED_EDGE ( 'NONE', *, *, #18, .T. ) ;
#85 = CIRCLE ( 'NONE', #1, 62.50000000000000000 ) ;
#86 = VERTEX_POINT ( 'NONE', #198 ) ;
#87 = ORIENTED_EDGE ( 'NONE', *, *, #186, .T. ) ;
#88 = CIRCLE ( 'NONE', #327, 78.50000000000000000 ) ;
#89 = CIRCLE ( 'NONE', #117, 62.50000000000000000 ) ;
#90 = CARTESIAN_POINT ( 'NONE',  ( 0.000000000000000000, 0.000000000000000000, 0.000000000000000000 ) ) ;
#91 = COLOUR_RGB ( '',0.7921568627450980005, 0.8196078431372548767, 0.9333333333333333481 ) ;
#92 = CARTESIAN_POINT ( 'NONE',  ( -78.50000000000000000, 126.9564568673541345, 45.98423535371203030 ) ) ;
#93 = VERTEX_POINT ( 'NONE', #27 ) ;
#94 = CARTESIAN_POINT ( 'NONE',  ( 62.50000000000000000, 68.55234457274758597, 7.654042494670957804E-15 ) ) ;
#95 = ORIENTED_EDGE ( 'NONE', *, *, #29, .T. ) ;
#96 = EDGE_CURVE ( 'NONE', #39, #93, #126, .T. ) ;
#97 = DIRECTION ( 'NONE',  ( 0.000000000000000000, 0.000000000000000000, 1.000000000000000000 ) ) ;
#98 = CARTESIAN_POINT ( 'NONE',  ( 9.613477373306723330E-15, 94.44069222106608663, -78.50000000000000000 ) ) ;
#99 = CARTESIAN_POINT ( 'NONE',  ( 7.654042494670957804E-15, 94.44069222106608663, -62.50000000000000000 ) ) ;
#100 = ADVANCED_FACE ( 'NONE', ( #150 ), #333, .F. ) ;
#101 = DIRECTION ( 'NONE',  ( 0.000000000000000000, 0.000000000000000000, 1.000000000000000000 ) ) ;
#102 =( NAMED_UNIT ( * ) SI_UNIT ( $, .STERADIAN. ) SOLID_ANGLE_UNIT ( ) );
#103 =( NAMED_UNIT ( * ) PLANE_ANGLE_UNIT ( ) SI_UNIT ( $, .RADIAN. ) );
#104 = EDGE_CURVE ( 'NONE', #36, #143, #130, .T. ) ;
#105 = CARTESIAN_POINT ( 'NONE',  ( 66.77965388946743985, 161.2203461105332565, 0.000000000000000000 ) ) ;
#106 = VERTEX_POINT ( 'NONE', #50 ) ;
#107 = FACE_OUTER_BOUND ( 'NONE', #240, .T. ) ;
#108 = DIRECTION ( 'NONE',  ( 0.000000000000000000, 0.000000000000000000, 1.000000000000000000 ) ) ;
#109 = ORIENTED_EDGE ( 'NONE', *, *, #210, .F. ) ;
#110 =( GEOMETRIC_REPRESENTATION_CONTEXT ( 3 ) GLOBAL_UNCERTAINTY_ASSIGNED_CONTEXT ( ( #310 ) ) GLOBAL_UNIT_ASSIGNED_CONTEXT ( ( #181, #265, #102 ) ) REPRESENTATION_CONTEXT ( 'NONE', 'WORKASPACE' ) );
#111 = LINE ( 'NONE', #53, #312 ) ;
#112 = ORIENTED_EDGE ( 'NONE', *, *, #307, .F. ) ;
#113 = ORIENTED_EDGE ( 'NONE', *, *, #149, .F. ) ;
#114 = CARTESIAN_POINT ( 'NONE',  ( 0.000000000000000000, 0.000000000000000000, 78.50000000000000000 ) ) ;
#115 = CARTESIAN_POINT ( 'NONE',  ( 0.000000000000000000, 94.44069222106608663, 78.50000000000000000 ) ) ;
#116 = ORIENTED_EDGE ( 'NONE', *, *, #75, .F. ) ;
#117 = AXIS2_PLACEMENT_3D ( 'NONE', #329, #303, #63 ) ;
#118 = CARTESIAN_POINT ( 'NONE',  ( 9.613477373306723330E-15, 0.000000000000000000, -78.50000000000000000 ) ) ;
#119 =( BOUNDED_CURVE ( )  B_SPLINE_CURVE ( 3, ( #158, #8, #207, #33 ),
 .UNSPECIFIED., .F., .T. ) 
 B_SPLINE_CURVE_WITH_KNOTS ( ( 4, 4 ),
 ( 3.141592653589793116, 4.712388980384689674 ),
 .UNSPECIFIED. ) 
 CURVE ( )  GEOMETRIC_REPRESENTATION_ITEM ( )  RATIONAL_B_SPLINE_CURVE ( ( 1.000000000000000000, 0.8047378541243649375, 0.8047378541243649375, 1.000000000000000000 ) ) 
 REPRESENTATION_ITEM ( '' )  );
#120 = CARTESIAN_POINT ( 'NONE',  ( 0.000000000000000000, 0.000000000000000000, 0.000000000000000000 ) ) ;
#121 = EDGE_CURVE ( 'NONE', #248, #67, #294, .T. ) ;
#122 = CARTESIAN_POINT ( 'NONE',  ( 22.58548006530830676, 205.4145199346925494, 0.000000000000000000 ) ) ;
#123 = DIRECTION ( 'NONE',  ( 0.000000000000000000, 0.000000000000000000, 1.000000000000000000 ) ) ;
#124 = VECTOR ( 'NONE', #296, 1000.000000000000000 ) ;
#125 = DIRECTION ( 'NONE',  ( 0.7071067811865487940, 0.7071067811865462405, 0.000000000000000000 ) ) ;
#126 = CIRCLE ( 'NONE', #321, 62.50000000000000000 ) ;
#127 = AXIS2_PLACEMENT_3D ( 'NONE', #105, #35, #108 ) ;
#128 = DIRECTION ( 'NONE',  ( 0.000000000000000000, 1.000000000000000000, 0.000000000000000000 ) ) ;
#129 = EDGE_LOOP ( 'NONE', ( #116, #157, #297, #95, #214 ) ) ;
#130 = CIRCLE ( 'NONE', #252, 78.50000000000000000 ) ;
#131 = CARTESIAN_POINT ( 'NONE',  ( 66.77965388946743985, 161.2203461105332565, 0.000000000000000000 ) ) ;
#132 = CARTESIAN_POINT ( 'NONE',  ( 78.50000000000000000, 61.92492757477803877, -45.98423535371203741 ) ) ;
#133 = ORIENTED_EDGE ( 'NONE', *, *, #307, .T. ) ;
#134 = CARTESIAN_POINT ( 'NONE',  ( 0.000000000000000000, 94.44069222106608663, 78.50000000000000000 ) ) ;
#135 = DIRECTION ( 'NONE',  ( -0.7071067811865462405, 0.7071067811865489050, 0.000000000000000000 ) ) ;
#136 = ORIENTED_EDGE ( 'NONE', *, *, #96, .F. ) ;
#137 = EDGE_CURVE ( 'NONE', #39, #67, #227, .T. ) ;
#138 = AXIS2_PLACEMENT_3D ( 'NONE', #90, #191, #299 ) ;
#139 = VERTEX_POINT ( 'NONE', #99 ) ;
#140 = VECTOR ( 'NONE', #28, 999.9999999999998863 ) ;
#141 = ORIENTED_EDGE ( 'NONE', *, *, #216, .T. ) ;
#142 = CYLINDRICAL_SURFACE ( 'NONE', #148, 62.50000000000000000 ) ;
#143 = VERTEX_POINT ( 'NONE', #334 ) ;
#144 = ORIENTED_EDGE ( 'NONE', *, *, #43, .T. ) ;
#145 = CIRCLE ( 'NONE', #246, 78.50000000000000000 ) ;
#146 = CYLINDRICAL_SURFACE ( 'NONE', #211, 78.50000000000000000 ) ;
#147 = DIRECTION ( 'NONE',  ( 0.000000000000000000, 1.000000000000000000, 0.000000000000000000 ) ) ;
#148 = AXIS2_PLACEMENT_3D ( 'NONE', #243, #166, #320 ) ;
#149 = EDGE_CURVE ( 'NONE', #62, #86, #85, .T. ) ;
#150 = FACE_OUTER_BOUND ( 'NONE', #206, .T. ) ;
#151 = LINE ( 'NONE', #73, #332 ) ;
#152 = ADVANCED_FACE ( 'NONE', ( #72 ), #229, .F. ) ;
#153 = VECTOR ( 'NONE', #168, 1000.000000000000000 ) ;
#154 = CARTESIAN_POINT ( 'NONE',  ( -62.49999999999997868, 120.3290398693845873, 0.000000000000000000 ) ) ;
#155 = EDGE_LOOP ( 'NONE', ( #46, #238, #113, #244, #193 ) ) ;
#156 = DIRECTION ( 'NONE',  ( 0.7071067811865487940, 0.7071067811865463515, 0.000000000000000000 ) ) ;
#157 = ORIENTED_EDGE ( 'NONE', *, *, #159, .T. ) ;
#158 = CARTESIAN_POINT ( 'NONE',  ( 62.50000000000000000, 68.55234457274758597, 7.654042494670957804E-15 ) ) ;
#159 = EDGE_CURVE ( 'NONE', #93, #39, #89, .T. ) ;
#160 = DIRECTION ( 'NONE',  ( 0.000000000000000000, 1.000000000000000000, 0.000000000000000000 ) ) ;
#161 = ORIENTED_EDGE ( 'NONE', *, *, #104, .F. ) ;
#162 = EDGE_CURVE ( 'NONE', #192, #15, #323, .T. ) ;
#163 = DIRECTION ( 'NONE',  ( 0.000000000000000000, 1.000000000000000000, 0.000000000000000000 ) ) ;
#164 = ORIENTED_EDGE ( 'NONE', *, *, #24, .T. ) ;
#165 = FACE_OUTER_BOUND ( 'NONE', #16, .T. ) ;
#166 = DIRECTION ( 'NONE',  ( 0.000000000000000000, 1.000000000000000000, 0.000000000000000000 ) ) ;
#167 = CARTESIAN_POINT ( 'NONE',  ( 7.654042494670957804E-15, 94.44069222106608663, -62.50000000000000000 ) ) ;
#168 = DIRECTION ( 'NONE',  ( 0.000000000000000000, 1.000000000000000000, 0.000000000000000000 ) ) ;
#169 = PRODUCT ( '9041154 (125mm dia x 45 deg)', '9041154 (125mm dia x 45 deg)', '', ( #259 ) ) ;
#170 = ADVANCED_FACE ( 'NONE', ( #66 ), #142, .F. ) ;
#171 = CARTESIAN_POINT ( 'NONE',  ( -106.1612518903459801, 99.29520497700825388, 0.000000000000000000 ) ) ;
#172 = AXIS2_PLACEMENT_3D ( 'NONE', #280, #45, #97 ) ;
#173 = EDGE_LOOP ( 'NONE', ( #224, #221, #81, #322, #293 ) ) ;
#174 = DIRECTION ( 'NONE',  ( -0.000000000000000000, -1.000000000000000000, -0.000000000000000000 ) ) ;
#175 = AXIS2_PLACEMENT_3D ( 'NONE', #235, #38, #135 ) ;
#176 = CARTESIAN_POINT ( 'NONE',  ( 0.000000000000000000, 0.000000000000000000, 0.000000000000000000 ) ) ;
#177 = CARTESIAN_POINT ( 'NONE',  ( -62.50000000000000000, 120.3290398693845873, 36.61165235168155618 ) ) ;
#178 =( BOUNDED_CURVE ( )  B_SPLINE_CURVE ( 3, ( #249, #65, #277, #94 ),
 .UNSPECIFIED., .F., .F. ) 
 B_SPLINE_CURVE_WITH_KNOTS ( ( 4, 4 ),
 ( 1.570796326794896558, 3.141592653589793116 ),
 .UNSPECIFIED. ) 
 CURVE ( )  GEOMETRIC_REPRESENTATION_ITEM ( )  RATIONAL_B_SPLINE_CURVE ( ( 1.000000000000000000, 0.8047378541243649375, 0.8047378541243649375, 1.000000000000000000 ) ) 
 REPRESENTATION_ITEM ( '' )  );
#179 = PRESENTATION_STYLE_ASSIGNMENT (( #78 ) ) ;
#180 = ADVANCED_FACE ( 'NONE', ( #12 ), #189, .F. ) ;
#181 =( LENGTH_UNIT ( ) NAMED_UNIT ( * ) SI_UNIT ( .MILLI., .METRE. ) );
#182 = DIRECTION ( 'NONE',  ( 0.000000000000000000, 0.000000000000000000, 1.000000000000000000 ) ) ;
#183 = CARTESIAN_POINT ( 'NONE',  ( 9.613477373306723330E-15, 94.44069222106608663, -78.50000000000000000 ) ) ;
#184 = FACE_OUTER_BOUND ( 'NONE', #219, .T. ) ;
#185 = EDGE_LOOP ( 'NONE', ( #292, #272, #141, #164, #7 ) ) ;
#186 = EDGE_CURVE ( 'NONE', #318, #234, #223, .T. ) ;
#187 = ORIENTED_EDGE ( 'NONE', *, *, #216, .F. ) ;
#188 = ORIENTED_EDGE ( 'NONE', *, *, #104, .T. ) ;
#189 = CYLINDRICAL_SURFACE ( 'NONE', #71, 62.49999999999999289 ) ;
#190 = EDGE_LOOP ( 'NONE', ( #133, #188 ) ) ;
#191 = DIRECTION ( 'NONE',  ( 0.000000000000000000, 1.000000000000000000, 0.000000000000000000 ) ) ;
#192 = VERTEX_POINT ( 'NONE', #118 ) ;
#193 = ORIENTED_EDGE ( 'NONE', *, *, #49, .F. ) ;
#194 = ORIENTED_EDGE ( 'NONE', *, *, #242, .F. ) ;
#195 = EDGE_CURVE ( 'NONE', #248, #62, #260, .T. ) ;
#196 = CARTESIAN_POINT ( 'NONE',  ( 0.000000000000000000, 94.44069222106608663, 78.50000000000000000 ) ) ;
#197 = DIRECTION ( 'NONE',  ( 0.000000000000000000, 0.000000000000000000, 1.000000000000000000 ) ) ;
#198 = CARTESIAN_POINT ( 'NONE',  ( 110.9738277136265765, 117.0261722863739777, 7.654042494670957804E-15 ) ) ;
#199 = AXIS2_PLACEMENT_3D ( 'NONE', #37, #212, #56 ) ;
#200 = DIRECTION ( 'NONE',  ( 0.000000000000000000, 0.000000000000000000, 1.000000000000000000 ) ) ;
#201 =( BOUNDED_CURVE ( )  B_SPLINE_CURVE ( 3, ( #325, #222, #330, #196 ),
 .UNSPECIFIED., .F., .T. ) 
 B_SPLINE_CURVE_WITH_KNOTS ( ( 4, 4 ),
 ( 3.141592653589793116, 4.712388980384689674 ),
 .UNSPECIFIED. ) 
 CURVE ( )  GEOMETRIC_REPRESENTATION_ITEM ( )  RATIONAL_B_SPLINE_CURVE ( ( 1.000000000000000000, 0.8047378541243649375, 0.8047378541243649375, 1.000000000000000000 ) ) 
 REPRESENTATION_ITEM ( '' )  );
#202 = CARTESIAN_POINT ( 'NONE',  ( 4.854512755941793323, -11.72055966927992188, 9.613477373306723330E-15 ) ) ;
#203 = FILL_AREA_STYLE_COLOUR ( '', #91 ) ;
#204 =( LENGTH_UNIT ( ) NAMED_UNIT ( * ) SI_UNIT ( .MILLI., .METRE. ) );
#205 = CARTESIAN_POINT ( 'NONE',  ( -78.49999999999998579, 126.9564568673541345, 0.000000000000000000 ) ) ;
#206 = EDGE_LOOP ( 'NONE', ( #55, #32, #218, #302, #301 ) ) ;
#207 = CARTESIAN_POINT ( 'NONE',  ( 36.61165235168157750, 79.27564927611072676, -62.49999999999998579 ) ) ;
#208 = CARTESIAN_POINT ( 'NONE',  ( 0.000000000000000000, 0.000000000000000000, 0.000000000000000000 ) ) ;
#209 = CARTESIAN_POINT ( 'NONE',  ( -45.98423535371203030, 113.4879861599300312, -78.50000000000000000 ) ) ;
#210 = EDGE_CURVE ( 'NONE', #41, #192, #88, .T. ) ;
#211 = AXIS2_PLACEMENT_3D ( 'NONE', #120, #163, #274 ) ;
#212 = DIRECTION ( 'NONE',  ( 0.000000000000000000, 1.000000000000000000, 0.000000000000000000 ) ) ;
#213 = MANIFOLD_SOLID_BREP ( 'Sweep1', #328 ) ;
#214 = ORIENTED_EDGE ( 'NONE', *, *, #317, .T. ) ;
#215 = EDGE_LOOP ( 'NONE', ( #237, #84 ) ) ;
#216 = EDGE_CURVE ( 'NONE', #15, #106, #331, .T. ) ;
#217 = APPLICATION_PROTOCOL_DEFINITION ( 'draft international standard', 'automotive_design', 1998, #273 ) ;
#218 = ORIENTED_EDGE ( 'NONE', *, *, #121, .F. ) ;
#219 = EDGE_LOOP ( 'NONE', ( #69, #42, #112, #295, #59 ) ) ;
#220 = CARTESIAN_POINT ( 'NONE',  ( -78.49999999999998579, 126.9564568673541345, 0.000000000000000000 ) ) ;
#221 = ORIENTED_EDGE ( 'NONE', *, *, #75, .T. ) ;
#222 = CARTESIAN_POINT ( 'NONE',  ( 78.50000000000000000, 61.92492757477803877, 45.98423535371203030 ) ) ;
#223 =( BOUNDED_CURVE ( )  B_SPLINE_CURVE ( 3, ( #115, #326, #92, #220 ),
 .UNSPECIFIED., .F., .F. ) 
 B_SPLINE_CURVE_WITH_KNOTS ( ( 4, 4 ),
 ( 4.712388980384689674, 6.283185307179586232 ),
 .UNSPECIFIED. ) 
 CURVE ( )  GEOMETRIC_REPRESENTATION_ITEM ( )  RATIONAL_B_SPLINE_CURVE ( ( 1.000000000000000000, 0.8047378541243649375, 0.8047378541243649375, 1.000000000000000000 ) ) 
 REPRESENTATION_ITEM ( '' )  );
#224 = ORIENTED_EDGE ( 'NONE', *, *, #96, .T. ) ;
#225 = ADVANCED_FACE ( 'NONE', ( #34 ), #2, .T. ) ;
#226 = CARTESIAN_POINT ( 'NONE',  ( 0.000000000000000000, 0.000000000000000000, 62.50000000000000000 ) ) ;
#227 = LINE ( 'NONE', #226, #337 ) ;
#228 = ADVANCED_FACE ( 'NONE', ( #271 ), #315, .T. ) ;
#229 = CYLINDRICAL_SURFACE ( 'NONE', #324, 62.50000000000000000 ) ;
#230 = VECTOR ( 'NONE', #128, 1000.000000000000000 ) ;
#231 = AXIS2_PLACEMENT_3D ( 'NONE', #300, #64, #311 ) ;
#232 = CARTESIAN_POINT ( 'NONE',  ( 0.000000000000000000, 0.000000000000000000, 0.000000000000000000 ) ) ;
#233 = FACE_OUTER_BOUND ( 'NONE', #190, .T. ) ;
#234 = VERTEX_POINT ( 'NONE', #205 ) ;
#235 = CARTESIAN_POINT ( 'NONE',  ( -50.65336956720209116, 43.78732265386415889, 0.000000000000000000 ) ) ;
#236 = DIRECTION ( 'NONE',  ( 0.7071067811865487940, 0.7071067811865463515, 0.000000000000000000 ) ) ;
#237 = ORIENTED_EDGE ( 'NONE', *, *, #149, .T. ) ;
#238 = ORIENTED_EDGE ( 'NONE', *, *, #339, .T. ) ;
#239 = CIRCLE ( 'NONE', #172, 62.50000000000000000 ) ;
#240 = EDGE_LOOP ( 'NONE', ( #109, #247 ) ) ;
#241 = AXIS2_PLACEMENT_3D ( 'NONE', #48, #284, #251 ) ;
#242 = EDGE_CURVE ( 'NONE', #234, #15, #256, .T. ) ;
#243 = CARTESIAN_POINT ( 'NONE',  ( 0.000000000000000000, 0.000000000000000000, 0.000000000000000000 ) ) ;
#244 = ORIENTED_EDGE ( 'NONE', *, *, #195, .F. ) ;
#245 = CARTESIAN_POINT ( 'NONE',  ( 62.50000000000000000, 68.55234457274758597, 7.654042494670957804E-15 ) ) ;
#246 = AXIS2_PLACEMENT_3D ( 'NONE', #131, #319, #182 ) ;
#247 = ORIENTED_EDGE ( 'NONE', *, *, #43, .F. ) ;
#248 = VERTEX_POINT ( 'NONE', #154 ) ;
#249 = CARTESIAN_POINT ( 'NONE',  ( 0.000000000000000000, 94.44069222106608663, 62.50000000000000000 ) ) ;
#250 = CARTESIAN_POINT ( 'NONE',  ( -62.49999999999997868, 120.3290398693845873, 0.000000000000000000 ) ) ;
#251 = DIRECTION ( 'NONE',  ( -0.7071067811865462405, 0.7071067811865487940, 0.000000000000000000 ) ) ;
#252 = AXIS2_PLACEMENT_3D ( 'NONE', #23, #125, #197 ) ;
#253 = CARTESIAN_POINT ( 'NONE',  ( -62.49999999999997868, 120.3290398693845873, 0.000000000000000000 ) ) ;
#254 = CARTESIAN_POINT ( 'NONE',  ( -36.61165235168154908, 109.6057351660214607, -62.50000000000000000 ) ) ;
#255 = CIRCLE ( 'NONE', #138, 78.50000000000000000 ) ;
#256 =( BOUNDED_CURVE ( )  B_SPLINE_CURVE ( 3, ( #291, #313, #209, #52 ),
 .UNSPECIFIED., .F., .T. ) 
 B_SPLINE_CURVE_WITH_KNOTS ( ( 4, 4 ),
 ( 0.000000000000000000, 1.570796326794896780 ),
 .UNSPECIFIED. ) 
 CURVE ( )  GEOMETRIC_REPRESENTATION_ITEM ( )  RATIONAL_B_SPLINE_CURVE ( ( 1.000000000000000000, 0.8047378541243649375, 0.8047378541243649375, 1.000000000000000000 ) ) 
 REPRESENTATION_ITEM ( '' )  );
#257 = EDGE_CURVE ( 'NONE', #106, #36, #54, .T. ) ;
#258 = DIRECTION ( 'NONE',  ( 0.000000000000000000, 0.000000000000000000, 1.000000000000000000 ) ) ;
#259 = PRODUCT_CONTEXT ( 'NONE', #273, 'mechanical' ) ;
#260 = LINE ( 'NONE', #9, #140 ) ;
#261 = AXIS2_PLACEMENT_3D ( 'NONE', #316, #156, #262 ) ;
#262 = DIRECTION ( 'NONE',  ( -0.7071067811865462405, 0.7071067811865489050, 0.000000000000000000 ) ) ;
#263 = EDGE_LOOP ( 'NONE', ( #136, #13 ) ) ;
#264 = PRODUCT_DEFINITION ( 'UNKNOWN', '', #82, #76 ) ;
#265 =( NAMED_UNIT ( * ) PLANE_ANGLE_UNIT ( ) SI_UNIT ( $, .RADIAN. ) );
#266 =( NAMED_UNIT ( * ) SI_UNIT ( $, .STERADIAN. ) SOLID_ANGLE_UNIT ( ) );
#267 = FACE_BOUND ( 'NONE', #215, .T. ) ;
#268 = EDGE_LOOP ( 'NONE', ( #276, #187, #194, #304, #161 ) ) ;
#269 = PLANE ( 'NONE',  #199 ) ;
#270 = ADVANCED_FACE ( 'NONE', ( #184 ), #6, .T. ) ;
#271 = FACE_OUTER_BOUND ( 'NONE', #268, .T. ) ;
#272 = ORIENTED_EDGE ( 'NONE', *, *, #162, .T. ) ;
#273 = APPLICATION_CONTEXT ( 'automotive_design' ) ;
#274 = DIRECTION ( 'NONE',  ( 0.000000000000000000, 0.000000000000000000, 1.000000000000000000 ) ) ;
#275 = DIRECTION ( 'NONE',  ( -0.7071067811865462405, 0.7071067811865487940, 0.000000000000000000 ) ) ;
#276 = ORIENTED_EDGE ( 'NONE', *, *, #257, .F. ) ;
#277 = CARTESIAN_POINT ( 'NONE',  ( 62.49999999999998579, 68.55234457274758597, 36.61165235168157039 ) ) ;
#278 = CARTESIAN_POINT ( 'NONE',  ( -40.34352826496853339, 54.09716395609768114, 0.000000000000000000 ) ) ;
#279 = PRESENTATION_LAYER_ASSIGNMENT (  '', '', ( #60 ) ) ;
#280 = CARTESIAN_POINT ( 'NONE',  ( 66.77965388946743985, 161.2203461105332565, 0.000000000000000000 ) ) ;
#281 = EDGE_CURVE ( 'NONE', #41, #318, #80, .T. ) ;
#282 =( BOUNDED_CURVE ( )  B_SPLINE_CURVE ( 3, ( #167, #254, #51, #250 ),
 .UNSPECIFIED., .F., .T. ) 
 B_SPLINE_CURVE_WITH_KNOTS ( ( 4, 4 ),
 ( 4.712388980384689674, 6.283185307179586232 ),
 .UNSPECIFIED. ) 
 CURVE ( )  GEOMETRIC_REPRESENTATION_ITEM ( )  RATIONAL_B_SPLINE_CURVE ( ( 1.000000000000000000, 0.8047378541243649375, 0.8047378541243649375, 1.000000000000000000 ) ) 
 REPRESENTATION_ITEM ( '' )  );
#283 = ADVANCED_FACE ( 'NONE', ( #267, #233 ), #3, .T. ) ;
#284 = DIRECTION ( 'NONE',  ( 0.7071067811865487940, 0.7071067811865462405, 0.000000000000000000 ) ) ;
#285 = MECHANICAL_DESIGN_GEOMETRIC_PRESENTATION_REPRESENTATION (  '', ( #60 ), #298 ) ;
#286 = CARTESIAN_POINT ( 'NONE',  ( -36.61165235168157039, 109.6057351660214607, 62.50000000000000000 ) ) ;
#287 = SURFACE_SIDE_STYLE ('',( #290 ) ) ;
#288 = ADVANCED_FACE ( 'NONE', ( #5, #107 ), #269, .F. ) ;
#289 = DIRECTION ( 'NONE',  ( 0.7071067811865489050, 0.7071067811865462405, 0.000000000000000000 ) ) ;
#290 = SURFACE_STYLE_FILL_AREA ( #314 ) ;
#291 = CARTESIAN_POINT ( 'NONE',  ( -78.49999999999998579, 126.9564568673541345, 0.000000000000000000 ) ) ;
#292 = ORIENTED_EDGE ( 'NONE', *, *, #210, .T. ) ;
#293 = ORIENTED_EDGE ( 'NONE', *, *, #137, .F. ) ;
#294 =( BOUNDED_CURVE ( )  B_SPLINE_CURVE ( 3, ( #253, #177, #286, #308 ),
 .UNSPECIFIED., .F., .F. ) 
 B_SPLINE_CURVE_WITH_KNOTS ( ( 4, 4 ),
 ( 0.000000000000000000, 1.570796326794896558 ),
 .UNSPECIFIED. ) 
 CURVE ( )  GEOMETRIC_REPRESENTATION_ITEM ( )  RATIONAL_B_SPLINE_CURVE ( ( 1.000000000000000000, 0.8047378541243649375, 0.8047378541243649375, 1.000000000000000000 ) ) 
 REPRESENTATION_ITEM ( '' )  );
#295 = ORIENTED_EDGE ( 'NONE', *, *, #17, .F. ) ;
#296 = DIRECTION ( 'NONE',  ( 0.7071067811865487940, 0.7071067811865463515, 0.000000000000000000 ) ) ;
#297 = ORIENTED_EDGE ( 'NONE', *, *, #137, .T. ) ;
#298 =( GEOMETRIC_REPRESENTATION_CONTEXT ( 3 ) GLOBAL_UNCERTAINTY_ASSIGNED_CONTEXT ( ( #338 ) ) GLOBAL_UNIT_ASSIGNED_CONTEXT ( ( #204, #103, #266 ) ) REPRESENTATION_CONTEXT ( 'NONE', 'WORKASPACE' ) );
#299 = DIRECTION ( 'NONE',  ( 0.000000000000000000, 0.000000000000000000, 1.000000000000000000 ) ) ;
#300 = CARTESIAN_POINT ( 'NONE',  ( 0.000000000000000000, 0.000000000000000000, 0.000000000000000000 ) ) ;
#301 = ORIENTED_EDGE ( 'NONE', *, *, #18, .F. ) ;
#302 = ORIENTED_EDGE ( 'NONE', *, *, #195, .T. ) ;
#303 = DIRECTION ( 'NONE',  ( -0.000000000000000000, -1.000000000000000000, -0.000000000000000000 ) ) ;
#304 = ORIENTED_EDGE ( 'NONE', *, *, #17, .T. ) ;
#305 = PRODUCT_RELATED_PRODUCT_CATEGORY ( 'part', '', ( #169 ) ) ;
#306 = DIRECTION ( 'NONE',  ( -0.7071067811865487940, -0.7071067811865462405, -0.000000000000000000 ) ) ;
#307 = EDGE_CURVE ( 'NONE', #143, #36, #145, .T. ) ;
#308 = CARTESIAN_POINT ( 'NONE',  ( 0.000000000000000000, 94.44069222106608663, 62.50000000000000000 ) ) ;
#309 = CARTESIAN_POINT ( 'NONE',  ( 0.000000000000000000, 94.44069222106608663, 62.50000000000000000 ) ) ;
#310 = UNCERTAINTY_MEASURE_WITH_UNIT (LENGTH_MEASURE( 1.000000000000000082E-05 ), #181, 'distance_accuracy_value', 'NONE');
#311 = DIRECTION ( 'NONE',  ( 1.000000000000000000, 0.000000000000000000, 0.000000000000000000 ) ) ;
#312 = VECTOR ( 'NONE', #289, 999.9999999999998863 ) ;
#313 = CARTESIAN_POINT ( 'NONE',  ( -78.50000000000000000, 126.9564568673541345, -45.98423535371203030 ) ) ;
#314 = FILL_AREA_STYLE ('',( #203 ) ) ;
#315 = CYLINDRICAL_SURFACE ( 'NONE', #175, 78.50000000000000000 ) ;
#316 = CARTESIAN_POINT ( 'NONE',  ( -50.65336956720209116, 43.78732265386415889, 0.000000000000000000 ) ) ;
#317 = EDGE_CURVE ( 'NONE', #58, #139, #119, .T. ) ;
#318 = VERTEX_POINT ( 'NONE', #134 ) ;
#319 = DIRECTION ( 'NONE',  ( 0.7071067811865487940, 0.7071067811865462405, 0.000000000000000000 ) ) ;
#320 = DIRECTION ( 'NONE',  ( 0.000000000000000000, 0.000000000000000000, 1.000000000000000000 ) ) ;
#321 = AXIS2_PLACEMENT_3D ( 'NONE', #176, #174, #200 ) ;
#322 = ORIENTED_EDGE ( 'NONE', *, *, #121, .T. ) ;
#323 = LINE ( 'NONE', #40, #153 ) ;
#324 = AXIS2_PLACEMENT_3D ( 'NONE', #47, #336, #101 ) ;
#325 = CARTESIAN_POINT ( 'NONE',  ( 78.50000000000001421, 61.92492757477803877, 9.613477373306723330E-15 ) ) ;
#326 = CARTESIAN_POINT ( 'NONE',  ( -45.98423535371203030, 113.4879861599300312, 78.50000000000000000 ) ) ;
#327 = AXIS2_PLACEMENT_3D ( 'NONE', #232, #57, #258 ) ;
#328 = CLOSED_SHELL ( 'NONE', ( #152, #180, #225, #270, #170, #100, #288, #283, #21, #228 ) ) ;
#329 = CARTESIAN_POINT ( 'NONE',  ( 0.000000000000000000, 0.000000000000000000, 0.000000000000000000 ) ) ;
#330 = CARTESIAN_POINT ( 'NONE',  ( 45.98423535371205872, 75.39339828220215622, 78.49999999999998579 ) ) ;
#331 =( BOUNDED_CURVE ( )  B_SPLINE_CURVE ( 3, ( #183, #10, #132, #83 ),
 .UNSPECIFIED., .F., .F. ) 
 B_SPLINE_CURVE_WITH_KNOTS ( ( 4, 4 ),
 ( 1.570796326794896780, 3.141592653589793116 ),
 .UNSPECIFIED. ) 
 CURVE ( )  GEOMETRIC_REPRESENTATION_ITEM ( )  RATIONAL_B_SPLINE_CURVE ( ( 1.000000000000000000, 0.8047378541243650485, 0.8047378541243650485, 1.000000000000000000 ) ) 
 REPRESENTATION_ITEM ( '' )  );
#332 = VECTOR ( 'NONE', #147, 1000.000000000000000 ) ;
#333 = CYLINDRICAL_SURFACE ( 'NONE', #241, 62.49999999999999289 ) ;
#334 = CARTESIAN_POINT ( 'NONE',  ( 11.27177156632355803, 216.7282284336774012, 0.000000000000000000 ) ) ;
#335 = VECTOR ( 'NONE', #236, 1000.000000000000000 ) ;
#336 = DIRECTION ( 'NONE',  ( 0.000000000000000000, 1.000000000000000000, 0.000000000000000000 ) ) ;
#337 = VECTOR ( 'NONE', #74, 1000.000000000000000 ) ;
#338 = UNCERTAINTY_MEASURE_WITH_UNIT (LENGTH_MEASURE( 1.000000000000000082E-05 ), #204, 'distance_accuracy_value', 'NONE');
#339 = EDGE_CURVE ( 'NONE', #58, #86, #111, .T. ) ;
ENDSEC;
END-ISO-10303-21;
